ISO-10303-21;
HEADER;
FILE_DESCRIPTION (( 'STEP AP203' ),
    '1' );
FILE_NAME ('MHWP-25.4-514.5.STEP',
    '2020-12-22T09:26:21',
    ( '' ),
    ( '' ),
    'SwSTEP 2.0',
    'SolidWorks 2020',
    '' );
FILE_SCHEMA (( 'CONFIG_CONTROL_DESIGN' ));
ENDSEC;

DATA;
#1 = APPROVAL ( #41, 'UNSPECIFIED' ) ;
#2 = CC_DESIGN_APPROVAL ( #44, ( #140 ) ) ;
#3 = DIRECTION ( 'NONE',  ( -1.000000000000000000, -0.000000000000000000, -0.000000000000000000 ) ) ;
#4 = CARTESIAN_POINT ( 'NONE',  ( 1.999999999999999112, 12.69999999999999929, 0.000000000000000000 ) ) ;
#5 = VERTEX_POINT ( 'NONE', #71 ) ;
#6 = CIRCLE ( 'NONE', #138, 12.69999999999999929 ) ;
#7 = ORIENTED_EDGE ( 'NONE', *, *, #147, .F. ) ;
#8 = CARTESIAN_POINT ( 'NONE',  ( 0.000000000000000000, 0.000000000000000000, 12.69999999999999929 ) ) ;
#9 = DIRECTION ( 'NONE',  ( 0.000000000000000000, 0.000000000000000000, 1.000000000000000000 ) ) ;
#10 = APPROVAL_DATE_TIME ( #37, #27 ) ;
#11 = DATE_AND_TIME ( #131, #68 ) ;
#12 = APPLICATION_PROTOCOL_DEFINITION ( 'international standard', 'config_control_design', 1994, #114 ) ;
#13 = APPROVAL_STATUS ( 'not_yet_approved' ) ;
#14 = PRODUCT ( 'MHWP-25.4-514.5', 'MHWP-25.4-514.5', '', ( #123 ) ) ;
#15 = PRODUCT_DEFINITION_FORMATION_WITH_SPECIFIED_SOURCE ( 'ANY', '', #14, .NOT_KNOWN. ) ;
#16 = DIRECTION ( 'NONE',  ( -1.000000000000000000, -0.000000000000000000, -0.000000000000000000 ) ) ;
#17 = PLANE ( 'NONE',  #29 ) ;
#18 = CYLINDRICAL_SURFACE ( 'NONE', #124, 12.69999999999999929 ) ;
#19 = CC_DESIGN_APPROVAL ( #1, ( #15 ) ) ;
#20 = CARTESIAN_POINT ( 'NONE',  ( -1.187907395172932594E-15, 0.000000000000000000, 0.000000000000000000 ) ) ;
#21 = EDGE_CURVE ( 'NONE', #5, #52, #164, .T. ) ;
#22 = DIRECTION ( 'NONE',  ( 1.000000000000000000, 0.000000000000000000, 0.000000000000000000 ) ) ;
#23 = VECTOR ( 'NONE', #61, 1000.000000000000000 ) ;
#24 = APPROVAL_STATUS ( 'not_yet_approved' ) ;
#25 = PERSON_AND_ORGANIZATION ( #89, #48 ) ;
#26 = PRODUCT_DEFINITION_SHAPE ( 'NONE', 'NONE',  #113 ) ;
#27 = APPROVAL ( #24, 'UNSPECIFIED' ) ;
#28 = EDGE_LOOP ( 'NONE', ( #7, #118 ) ) ;
#29 = AXIS2_PLACEMENT_3D ( 'NONE', #30, #155, #85 ) ;
#30 = CARTESIAN_POINT ( 'NONE',  ( -5.939536975864662969E-16, 12.69999999999999929, 0.000000000000000000 ) ) ;
#31 = ORIENTED_EDGE ( 'NONE', *, *, #109, .T. ) ;
#32 = DIRECTION ( 'NONE',  ( 0.000000000000000000, 0.000000000000000000, 1.000000000000000000 ) ) ;
#33 = ORIENTED_EDGE ( 'NONE', *, *, #165, .F. ) ;
#34 = FACE_OUTER_BOUND ( 'NONE', #28, .T. ) ;
#35 = CC_DESIGN_PERSON_AND_ORGANIZATION_ASSIGNMENT ( #56, #130, ( #14 ) ) ;
#36 = PRODUCT_RELATED_PRODUCT_CATEGORY ( 'detail', '', ( #14 ) ) ;
#37 = DATE_AND_TIME ( #111, #91 ) ;
#38 = PERSON_AND_ORGANIZATION_ROLE ( 'design_supplier' ) ;
#39 = DATE_TIME_ROLE ( 'creation_date' ) ;
#40 = APPROVAL_PERSON_ORGANIZATION ( #25, #1, #55 ) ;
#41 = APPROVAL_STATUS ( 'not_yet_approved' ) ;
#42 = VERTEX_POINT ( 'NONE', #129 ) ;
#43 = AXIS2_PLACEMENT_3D ( 'NONE', #101, #117, #141 ) ;
#44 = APPROVAL ( #13, 'UNSPECIFIED' ) ;
#45 = DIRECTION ( 'NONE',  ( -0.000000000000000000, 0.000000000000000000, 1.000000000000000000 ) ) ;
#46 = VERTEX_POINT ( 'NONE', #166 ) ;
#47 = DIRECTION ( 'NONE',  ( 0.000000000000000000, 0.000000000000000000, 1.000000000000000000 ) ) ;
#48 = ORGANIZATION ( 'UNSPECIFIED', 'UNSPECIFIED', '' ) ;
#49 = FACE_OUTER_BOUND ( 'NONE', #74, .T. ) ;
#50 = UNCERTAINTY_MEASURE_WITH_UNIT (LENGTH_MEASURE( 1.000000000000000082E-05 ), #87, 'distance_accuracy_value', 'NONE');
#51 = LINE ( 'NONE', #150, #75 ) ;
#52 = VERTEX_POINT ( 'NONE', #125 ) ;
#53 = ORIENTED_EDGE ( 'NONE', *, *, #151, .T. ) ;
#54 = PERSON_AND_ORGANIZATION ( #89, #48 ) ;
#55 = APPROVAL_ROLE ( '' ) ;
#56 = PERSON_AND_ORGANIZATION ( #89, #48 ) ;
#57 = ORIENTED_EDGE ( 'NONE', *, *, #69, .F. ) ;
#58 =( NAMED_UNIT ( * ) PLANE_ANGLE_UNIT ( ) SI_UNIT ( $, .RADIAN. ) );
#59 = FACE_OUTER_BOUND ( 'NONE', #115, .T. ) ;
#60 = ORIENTED_EDGE ( 'NONE', *, *, #21, .T. ) ;
#61 = DIRECTION ( 'NONE',  ( -1.000000000000000000, -0.000000000000000000, -0.000000000000000000 ) ) ;
#62 = APPLICATION_PROTOCOL_DEFINITION ( 'international standard', 'config_control_design', 1994, #84 ) ;
#63 = CARTESIAN_POINT ( 'NONE',  ( 0.000000000000000000, 0.000000000000000000, 0.000000000000000000 ) ) ;
#64 = AXIS2_PLACEMENT_3D ( 'NONE', #137, #168, #156 ) ;
#65 = DATE_TIME_ROLE ( 'classification_date' ) ;
#66 = ADVANCED_BREP_SHAPE_REPRESENTATION ( 'MHWP-25.4-514.5', ( #119, #79 ), #174 ) ;
#67 = PERSON_AND_ORGANIZATION ( #89, #48 ) ;
#68 = LOCAL_TIME ( 17, 26, 21.00000000000000000, #78 ) ;
#69 = EDGE_CURVE ( 'NONE', #46, #52, #6, .T. ) ;
#70 = CIRCLE ( 'NONE', #64, 12.69999999999999929 ) ;
#71 = CARTESIAN_POINT ( 'NONE',  ( 1.999999999999998224, 0.000000000000000000, 12.69999999999999929 ) ) ;
#72 = DIRECTION ( 'NONE',  ( -1.000000000000000000, 0.000000000000000000, -0.000000000000000000 ) ) ;
#73 = ADVANCED_FACE ( 'NONE', ( #34 ), #90, .F. ) ;
#74 = EDGE_LOOP ( 'NONE', ( #33, #53, #60, #57 ) ) ;
#75 = VECTOR ( 'NONE', #163, 1000.000000000000000 ) ;
#76 = CC_DESIGN_DATE_AND_TIME_ASSIGNMENT ( #11, #65, ( #140 ) ) ;
#77 = CARTESIAN_POINT ( 'NONE',  ( 1.999999999999998224, 0.000000000000000000, 0.000000000000000000 ) ) ;
#78 = COORDINATED_UNIVERSAL_TIME_OFFSET ( 8, 0, .AHEAD. ) ;
#79 = AXIS2_PLACEMENT_3D ( 'NONE', #63, #160, #22 ) ;
#80 = COORDINATED_UNIVERSAL_TIME_OFFSET ( 8, 0, .AHEAD. ) ;
#81 = LOCAL_TIME ( 17, 26, 21.00000000000000000, #80 ) ;
#82 = CC_DESIGN_PERSON_AND_ORGANIZATION_ASSIGNMENT ( #92, #121, ( #113 ) ) ;
#83 = CLOSED_SHELL ( 'NONE', ( #139, #98, #73, #112 ) ) ;
#84 = APPLICATION_CONTEXT ( 'configuration controlled 3d designs of mechanical parts and assemblies' ) ;
#85 = DIRECTION ( 'NONE',  ( 0.000000000000000000, 0.000000000000000000, -1.000000000000000000 ) ) ;
#86 = ORIENTED_EDGE ( 'NONE', *, *, #165, .T. ) ;
#87 =( LENGTH_UNIT ( ) NAMED_UNIT ( * ) SI_UNIT ( .MILLI., .METRE. ) );
#88 = DIRECTION ( 'NONE',  ( -1.000000000000000000, -0.000000000000000000, -0.000000000000000000 ) ) ;
#89 = PERSON ( 'UNSPECIFIED', 'UNSPECIFIED', 'UNSPECIFIED', ('UNSPECIFIED'), ('UNSPECIFIED'), ('UNSPECIFIED') ) ;
#90 = PLANE ( 'NONE',  #103 ) ;
#91 = LOCAL_TIME ( 17, 26, 21.00000000000000000, #173 ) ;
#92 = PERSON_AND_ORGANIZATION ( #89, #48 ) ;
#93 = PERSON_AND_ORGANIZATION ( #89, #48 ) ;
#94 = CALENDAR_DATE ( 2020, 22, 12 ) ;
#95 = AXIS2_PLACEMENT_3D ( 'NONE', #126, #88, #152 ) ;
#96 = CALENDAR_DATE ( 2020, 22, 12 ) ;
#97 = COORDINATED_UNIVERSAL_TIME_OFFSET ( 8, 0, .AHEAD. ) ;
#98 = ADVANCED_FACE ( 'NONE', ( #49 ), #18, .T. ) ;
#99 = CC_DESIGN_APPROVAL ( #27, ( #113 ) ) ;
#100 = CC_DESIGN_PERSON_AND_ORGANIZATION_ASSIGNMENT ( #93, #143, ( #140 ) ) ;
#101 = CARTESIAN_POINT ( 'NONE',  ( 0.000000000000000000, 0.000000000000000000, 0.000000000000000000 ) ) ;
#102 = CYLINDRICAL_SURFACE ( 'NONE', #43, 12.69999999999999929 ) ;
#103 = AXIS2_PLACEMENT_3D ( 'NONE', #4, #72, #45 ) ;
#104 = ORIENTED_EDGE ( 'NONE', *, *, #69, .T. ) ;
#105 = DESIGN_CONTEXT ( 'detailed design', #114, 'design' ) ;
#106 = FACE_OUTER_BOUND ( 'NONE', #169, .T. ) ;
#107 = CC_DESIGN_SECURITY_CLASSIFICATION ( #140, ( #15 ) ) ;
#108 = DATE_AND_TIME ( #94, #136 ) ;
#109 = EDGE_CURVE ( 'NONE', #52, #46, #127, .T. ) ;
#110 = COORDINATED_UNIVERSAL_TIME_OFFSET ( 8, 0, .AHEAD. ) ;
#111 = CALENDAR_DATE ( 2020, 22, 12 ) ;
#112 = ADVANCED_FACE ( 'NONE', ( #59 ), #17, .F. ) ;
#113 = PRODUCT_DEFINITION ( 'UNKNOWN', '', #15, #105 ) ;
#114 = APPLICATION_CONTEXT ( 'configuration controlled 3d designs of mechanical parts and assemblies' ) ;
#115 = EDGE_LOOP ( 'NONE', ( #31, #104 ) ) ;
#116 =( NAMED_UNIT ( * ) SI_UNIT ( $, .STERADIAN. ) SOLID_ANGLE_UNIT ( ) );
#117 = DIRECTION ( 'NONE',  ( -1.000000000000000000, -0.000000000000000000, -0.000000000000000000 ) ) ;
#118 = ORIENTED_EDGE ( 'NONE', *, *, #151, .F. ) ;
#119 = MANIFOLD_SOLID_BREP ( 'Ðý×', #83 ) ;
#120 = PERSON_AND_ORGANIZATION ( #89, #48 ) ;
#121 = PERSON_AND_ORGANIZATION_ROLE ( 'creator' ) ;
#122 = APPROVAL_DATE_TIME ( #175, #44 ) ;
#123 = MECHANICAL_CONTEXT ( 'NONE', #84, 'mechanical' ) ;
#124 = AXIS2_PLACEMENT_3D ( 'NONE', #153, #3, #47 ) ;
#125 = CARTESIAN_POINT ( 'NONE',  ( -1.187907395172932594E-15, 0.000000000000000000, 12.69999999999999929 ) ) ;
#126 = CARTESIAN_POINT ( 'NONE',  ( -1.187907395172932594E-15, 0.000000000000000000, 0.000000000000000000 ) ) ;
#127 = CIRCLE ( 'NONE', #95, 12.69999999999999929 ) ;
#128 = ORIENTED_EDGE ( 'NONE', *, *, #109, .F. ) ;
#129 = CARTESIAN_POINT ( 'NONE',  ( 1.999999999999998224, 1.555301434917138433E-15, -12.69999999999999929 ) ) ;
#130 = PERSON_AND_ORGANIZATION_ROLE ( 'design_owner' ) ;
#131 = CALENDAR_DATE ( 2020, 22, 12 ) ;
#132 = CC_DESIGN_DATE_AND_TIME_ASSIGNMENT ( #172, #39, ( #113 ) ) ;
#133 = SECURITY_CLASSIFICATION_LEVEL ( 'unclassified' ) ;
#134 = AXIS2_PLACEMENT_3D ( 'NONE', #77, #170, #9 ) ;
#135 = PERSON_AND_ORGANIZATION ( #89, #48 ) ;
#136 = LOCAL_TIME ( 17, 26, 21.00000000000000000, #97 ) ;
#137 = CARTESIAN_POINT ( 'NONE',  ( 1.999999999999998224, 0.000000000000000000, 0.000000000000000000 ) ) ;
#138 = AXIS2_PLACEMENT_3D ( 'NONE', #20, #16, #32 ) ;
#139 = ADVANCED_FACE ( 'NONE', ( #106 ), #102, .T. ) ;
#140 = SECURITY_CLASSIFICATION ( '', '', #133 ) ;
#141 = DIRECTION ( 'NONE',  ( 0.000000000000000000, 0.000000000000000000, 1.000000000000000000 ) ) ;
#142 = APPROVAL_ROLE ( '' ) ;
#143 = PERSON_AND_ORGANIZATION_ROLE ( 'classification_officer' ) ;
#144 = APPROVAL_PERSON_ORGANIZATION ( #135, #27, #142 ) ;
#145 = APPROVAL_ROLE ( '' ) ;
#146 = SHAPE_DEFINITION_REPRESENTATION ( #26, #66 ) ;
#147 = EDGE_CURVE ( 'NONE', #5, #42, #70, .T. ) ;
#148 = CIRCLE ( 'NONE', #134, 12.69999999999999929 ) ;
#149 = CC_DESIGN_PERSON_AND_ORGANIZATION_ASSIGNMENT ( #54, #38, ( #15 ) ) ;
#150 = CARTESIAN_POINT ( 'NONE',  ( 0.000000000000000000, 1.555301434917138433E-15, -12.69999999999999929 ) ) ;
#151 = EDGE_CURVE ( 'NONE', #42, #5, #148, .T. ) ;
#152 = DIRECTION ( 'NONE',  ( 0.000000000000000000, 0.000000000000000000, 1.000000000000000000 ) ) ;
#153 = CARTESIAN_POINT ( 'NONE',  ( 0.000000000000000000, 0.000000000000000000, 0.000000000000000000 ) ) ;
#154 = ORIENTED_EDGE ( 'NONE', *, *, #21, .F. ) ;
#155 = DIRECTION ( 'NONE',  ( 1.000000000000000000, 0.000000000000000000, 0.000000000000000000 ) ) ;
#156 = DIRECTION ( 'NONE',  ( 0.000000000000000000, 0.000000000000000000, 1.000000000000000000 ) ) ;
#157 = CC_DESIGN_PERSON_AND_ORGANIZATION_ASSIGNMENT ( #120, #171, ( #15 ) ) ;
#158 = APPROVAL_DATE_TIME ( #108, #1 ) ;
#159 = CALENDAR_DATE ( 2020, 22, 12 ) ;
#160 = DIRECTION ( 'NONE',  ( 0.000000000000000000, 0.000000000000000000, 1.000000000000000000 ) ) ;
#161 = ORIENTED_EDGE ( 'NONE', *, *, #147, .T. ) ;
#162 = APPROVAL_PERSON_ORGANIZATION ( #67, #44, #145 ) ;
#163 = DIRECTION ( 'NONE',  ( -1.000000000000000000, -0.000000000000000000, -0.000000000000000000 ) ) ;
#164 = LINE ( 'NONE', #8, #23 ) ;
#165 = EDGE_CURVE ( 'NONE', #42, #46, #51, .T. ) ;
#166 = CARTESIAN_POINT ( 'NONE',  ( -1.187907395172932594E-15, 1.555301434917138433E-15, -12.69999999999999929 ) ) ;
#167 = LOCAL_TIME ( 17, 26, 21.00000000000000000, #110 ) ;
#168 = DIRECTION ( 'NONE',  ( -1.000000000000000000, -0.000000000000000000, -0.000000000000000000 ) ) ;
#169 = EDGE_LOOP ( 'NONE', ( #161, #86, #128, #154 ) ) ;
#170 = DIRECTION ( 'NONE',  ( -1.000000000000000000, -0.000000000000000000, -0.000000000000000000 ) ) ;
#171 = PERSON_AND_ORGANIZATION_ROLE ( 'creator' ) ;
#172 = DATE_AND_TIME ( #159, #167 ) ;
#173 = COORDINATED_UNIVERSAL_TIME_OFFSET ( 8, 0, .AHEAD. ) ;
#174 =( GEOMETRIC_REPRESENTATION_CONTEXT ( 3 ) GLOBAL_UNCERTAINTY_ASSIGNED_CONTEXT ( ( #50 ) ) GLOBAL_UNIT_ASSIGNED_CONTEXT ( ( #87, #58, #116 ) ) REPRESENTATION_CONTEXT ( 'NONE', 'WORKASPACE' ) );
#175 = DATE_AND_TIME ( #96, #81 ) ;
ENDSEC;
END-ISO-10303-21;
